  0
SECTION
  2
HEADER
  9
$ACADVER
  1
AC1009
  9
$INSBASE
 10
85.41873186613392
 20
217.4781028661339
 30
0.0
  9
$EXTMIN
 10
85.41873186613392
 20
217.4781028661339
 30
0.0
  9
$EXTMAX
 10
237.9405289529663
 20
371.6553709529663
 30
0.0
  9
$LIMMIN
 10
0.0
 20
0.0
  9
$LIMMAX
 10
420.0
 20
297.0
  9
$ORTHOMODE
 70
     0
  9
$REGENMODE
 70
     1
  9
$FILLMODE
 70
     1
  9
$QTEXTMODE
 70
     0
  9
$MIRRTEXT
 70
     0
  9
$DRAGMODE
 70
     2
  9
$LTSCALE
 40
1.0
  9
$OSMODE
 70
     0
  9
$ATTMODE
 70
     1
  9
$TEXTSIZE
 40
3.5
  9
$TRACEWID
 40
0.05
  9
$TEXTSTYLE
  7
STANDARD
  9
$CLAYER
  8
ITEM_50
  9
$CELTYPE
  6
BYLAYER
  9
$CECOLOR
 62
   256
  9
$DIMSCALE
 40
1.0
  9
$DIMASZ
 40
2.5
  9
$DIMEXO
 40
1.0
  9
$DIMDLI
 40
8.0
  9
$DIMRND
 40
0.0
  9
$DIMDLE
 40
0.0
  9
$DIMEXE
 40
2.0
  9
$DIMTP
 40
0.1
  9
$DIMTM
 40
0.1
  9
$DIMTXT
 40
3.5
  9
$DIMCEN
 40
2.0
  9
$DIMTSZ
 40
0.0
  9
$DIMTOL
 70
     0
  9
$DIMLIM
 70
     0
  9
$DIMTIH
 70
     0
  9
$DIMTOH
 70
     0
  9
$DIMSE1
 70
     0
  9
$DIMSE2
 70
     0
  9
$DIMTAD
 70
     1
  9
$DIMZIN
 70
     8
  9
$DIMBLK
  1

  9
$DIMASO
 70
     0
  9
$DIMSHO
 70
     0
  9
$DIMPOST
  1

  9
$DIMAPOST
  1

  9
$DIMALT
 70
     0
  9
$DIMALTD
 70
     2
  9
$DIMALTF
 40
25.39999999999999
  9
$DIMLFAC
 40
1.0
  9
$DIMTOFL
 70
     1
  9
$DIMTVP
 40
0.0
  9
$DIMTIX
 70
     0
  9
$DIMSOXD
 70
     0
  9
$DIMSAH
 70
     0
  9
$DIMBLK1
  1

  9
$DIMBLK2
  1

  9
$DIMSTYLE
  2
*UNNAMED
  9
$DIMCLRD
 70
     0
  9
$DIMCLRE
 70
     0
  9
$DIMCLRT
 70
     0
  9
$DIMTFAC
 40
1.0
  9
$DIMGAP
 40
0.09
  9
$LUNITS
 70
     2
  9
$LUPREC
 70
     3
  9
$SKETCHINC
 40
0.1
  9
$FILLETRAD
 40
20.0
  9
$AUNITS
 70
     0
  9
$AUPREC
 70
     3
  9
$MENU
  1

  9
$ELEVATION
 40
0.0
  9
$PELEVATION
 40
0.0
  9
$THICKNESS
 40
0.0
  9
$LIMCHECK
 70
     0
  9
$BLIPMODE
 70
     0
  9
$CHAMFERA
 40
0.0
  9
$CHAMFERB
 40
0.0
  9
$SKPOLY
 70
     1
  9
$TDCREATE
 40
2449238.371204745
  9
$TDUPDATE
 40
2449394.637299073
  9
$TDINDWG
 40
0.0028893519
  9
$TDUSRTIMER
 40
0.0028893519
  9
$USRTIMER
 70
     1
  9
$ANGBASE
 50
0.0
  9
$ANGDIR
 70
     0
  9
$PDMODE
 70
     3
  9
$PDSIZE
 40
2.0
  9
$PLINEWID
 40
0.0
  9
$COORDS
 70
     2
  9
$SPLFRAME
 70
     0
  9
$SPLINETYPE
 70
     6
  9
$SPLINESEGS
 70
     8
  9
$ATTDIA
 70
     1
  9
$ATTREQ
 70
     1
  9
$HANDLING
 70
     1
  9
$HANDSEED
  5
90
  9
$SURFTAB1
 70
     6
  9
$SURFTAB2
 70
     6
  9
$SURFTYPE
 70
     6
  9
$SURFU
 70
     6
  9
$SURFV
 70
     6
  9
$UCSNAME
  2

  9
$UCSORG
 10
0.0
 20
0.0
 30
0.0
  9
$UCSXDIR
 10
1.0
 20
0.0
 30
0.0
  9
$UCSYDIR
 10
0.0
 20
1.0
 30
0.0
  9
$PUCSNAME
  2

  9
$PUCSORG
 10
0.0
 20
0.0
 30
0.0
  9
$PUCSXDIR
 10
1.0
 20
0.0
 30
0.0
  9
$PUCSYDIR
 10
0.0
 20
1.0
 30
0.0
  9
$USERI1
 70
     0
  9
$USERI2
 70
     3
  9
$USERI3
 70
    15
  9
$USERI4
 70
     0
  9
$USERI5
 70
     0
  9
$USERR1
 40
0.0
  9
$USERR2
 40
1.0
  9
$USERR3
 40
0.0
  9
$USERR4
 40
1.0
  9
$USERR5
 40
0.0
  9
$WORLDVIEW
 70
     1
  9
$SHADEDGE
 70
     3
  9
$SHADEDIF
 70
    70
  9
$TILEMODE
 70
     1
  9
$MAXACTVP
 70
    16
  9
$PINSBASE
 10
0.0
 20
0.0
 30
0.0
  9
$PLIMCHECK
 70
     0
  9
$PEXTMIN
 10
1.000000000000000E+20
 20
1.000000000000000E+20
 30
1.000000000000000E+20
  9
$PEXTMAX
 10
-1.000000000000000E+20
 20
-1.000000000000000E+20
 30
-1.000000000000000E+20
  9
$PLIMMIN
 10
0.0
 20
0.0
  9
$PLIMMAX
 10
12.0
 20
9.0
  9
$UNITMODE
 70
     0
  9
$VISRETAIN
 70
     0
  9
$PLINEGEN
 70
     0
  9
$PSLTSCALE
 70
     0
  9
$TREEDEPTH
 70
  3020
  9
$DWGCODEPAGE
  3
undefined
  0
ENDSEC
  0
SECTION
  2
TABLES
  0
TABLE
  2
VPORT
 70
     2
  0
VPORT
  2
*ACTIVE
 70
     0
 10
0.0
 20
0.0
 11
1.0
 21
1.0
 12
191.4993272272246
 22
300.6345017720736
 13
0.0
 23
0.0
 14
7.0
 24
7.0
 15
0.0
 25
0.0
 16
0.0
 26
0.0
 36
1.0
 17
0.0
 27
0.0
 37
0.0
 40
166.3127978118794
 41
1.275675675675675
 42
50.0
 43
0.0
 44
0.0
 50
0.0
 51
0.0
 71
     0
 72
 10000
 73
     1
 74
     0
 75
     0
 76
     0
 77
     0
 78
     0
  0
ENDTAB
  0
TABLE
  2
LTYPE
 70
     9
  0
LTYPE
  2
AUSGEZOGEN
 70
    64
  3
Solid line
 72
    65
 73
     0
 40
0.0
  0
LTYPE
  2
STRICHPUNKT
 70
     0
  3
____ . ____ . ____ . ____ . ____ . ____ . ____
 72
    65
 73
     4
 40
15.0
 49
10.0
 49
-2.5
 49
0.0
 49
-2.5
  0
LTYPE
  2
STRICHPUNKTA
 70
     0
  3
__ . __ . __
 72
    65
 73
     4
 40
3.6
 49
2.399999999999999
 49
-0.6
 49
0.0
 49
-0.6
  0
LTYPE
  2
STRICHA
 70
     0
  3
- - - - - 
 72
    65
 73
     2
 40
1.5
 49
1.2
 49
-0.3
  0
LTYPE
  2
STRICH
 70
     0
  3
-- -- -- -- -- -- -- -- -- -- -- -- -- -- -- 
 72
    65
 73
     2
 40
6.25
 49
5.0
 49
-1.25
  0
LTYPE
  2
ITEM-STRICH
 70
     0
  3
- - - - -
 72
    65
 73
     2
 40
1.5
 49
1.2
 49
-0.3
  0
LTYPE
  2
ITEM-STRICHGR
 70
    64
  3
-- -- -- -- -- 
 72
    65
 73
     2
 40
6.25
 49
5.0
 49
-1.25
  0
LTYPE
  2
ITEM-STRICHPUNKT
 70
     0
  3
__ . __ . __
 72
    65
 73
     4
 40
3.599999999999999
 49
2.399999999999999
 49
-0.6
 49
0.0
 49
-0.6
  0
LTYPE
  2
ITEM-STRICHPGR
 70
    64
  3
____ . ____ . ____ . ____ . ____ . ____ . ____
 72
    65
 73
     4
 40
15.0
 49
10.0
 49
-2.5
 49
0.0
 49
-2.5
  0
ENDTAB
  0
TABLE
  2
LAYER
 70
     5
  0
LAYER
  2
0
 70
     0
 62
     7
  6
AUSGEZOGEN
  0
LAYER
  2
ITEM_50
 70
    64
 62
     7
  6
AUSGEZOGEN
  0
LAYER
  2
ITEM_HILFE
 70
    64
 62
     3
  6
AUSGEZOGEN
  0
LAYER
  2
ITEM_STPG
 70
     0
 62
     4
  6
ITEM-STRICHPGR
  0
LAYER
  2
ITEM_GSTRG
 70
    64
 62
     6
  6
ITEM-STRICHGR
  0
ENDTAB
  0
TABLE
  2
STYLE
 70
     1
  0
STYLE
  2
STANDARD
 70
     0
 40
0.0
 41
1.0
 50
0.0
 71
     0
 42
3.5
  3
iso
  4

  0
ENDTAB
  0
TABLE
  2
VIEW
 70
     5
  0
VIEW
  2
1
 70
     0
 40
146.0
 10
113.5
 20
206.0
 41
207.0
 11
0.0
 21
0.0
 31
1.0
 12
0.0
 22
0.0
 32
0.0
 42
50.0
 43
0.0
 44
0.0
 50
0.0
 71
     0
  0
VIEW
  2
2
 70
     0
 40
128.0
 10
309.5
 20
218.0
 41
193.0
 11
0.0
 21
0.0
 31
1.0
 12
0.0
 22
0.0
 32
0.0
 42
50.0
 43
0.0
 44
0.0
 50
0.0
 71
     0
  0
VIEW
  2
3
 70
     0
 40
154.0
 10
127.0
 20
89.0
 41
220.0
 11
0.0
 21
0.0
 31
1.0
 12
0.0
 22
0.0
 32
0.0
 42
50.0
 43
0.0
 44
0.0
 50
0.0
 71
     0
  0
VIEW
  2
4
 70
     0
 40
155.0
 10
311.0
 20
77.5
 41
218.0
 11
0.0
 21
0.0
 31
1.0
 12
0.0
 22
0.0
 32
0.0
 42
50.0
 43
0.0
 44
0.0
 50
0.0
 71
     0
  0
VIEW
  2
5
 70
     0
 40
123.0
 10
207.0
 20
149.5
 41
184.0
 11
0.0
 21
0.0
 31
1.0
 12
0.0
 22
0.0
 32
0.0
 42
50.0
 43
0.0
 44
0.0
 50
0.0
 71
     0
  0
ENDTAB
  0
TABLE
  2
UCS
 70
     0
  0
ENDTAB
  0
TABLE
  2
APPID
 70
     1
  0
APPID
  2
ACAD
 70
    64
  0
ENDTAB
  0
TABLE
  2
DIMSTYLE
 70
     0
  0
ENDTAB
  0
ENDSEC
  0
SECTION
  2
BLOCKS
  0
ENDSEC
  0
SECTION
  2
ENTITIES
  0
POINT
  8
ITEM_HILFE
  5
3B
 10
146.833059
 20
278.8924299999999
 30
0.0
  0
POINT
  8
ITEM_HILFE
  5
3C
 10
233.422762
 20
218.8924299999999
 30
0.0
  0
POINT
  8
ITEM_HILFE
  5
3D
 10
86.83305899999999
 20
218.8924299999999
 30
0.0
  0
POINT
  8
ITEM_HILFE
  5
3F
 10
86.83305899999999
 20
367.137604
 30
0.0
  0
CIRCLE
  8
ITEM_50
  5
41
 10
93.33305899999999
 20
225.3924319999999
 30
0.0
 40
2.1
  0
CIRCLE
  8
ITEM_50
  5
42
 10
93.33305899999999
 20
332.3924299999999
 30
0.0
 40
2.1
  0
CIRCLE
  8
ITEM_50
  5
43
 10
200.333059
 20
332.3924299999999
 30
0.0
 40
2.1
  0
CIRCLE
  8
ITEM_50
  5
44
 10
200.333059
 20
225.3924319999999
 30
0.0
 40
2.1
  0
LINE
  8
ITEM_GSTRG
  5
45
 10
233.422762
 20
325.8924299999999
 30
0.0
 11
224.422762
 21
325.8924299999999
 31
0.0
  0
LINE
  8
ITEM_GSTRG
  5
46
 10
224.422762
 20
325.8924299999999
 30
0.0
 11
224.422762
 21
311.8924299999999
 31
0.0
  0
LINE
  8
ITEM_GSTRG
  5
47
 10
224.422762
 20
311.8924299999999
 30
0.0
 11
233.422762
 21
311.8924299999999
 31
0.0
  0
LINE
  8
ITEM_GSTRG
  5
48
 10
233.422762
 20
285.8924299999999
 30
0.0
 11
224.422762
 21
285.8924299999999
 31
0.0
  0
LINE
  8
ITEM_GSTRG
  5
49
 10
224.422762
 20
285.8924299999999
 30
0.0
 11
224.422762
 21
271.8924299999999
 31
0.0
  0
LINE
  8
ITEM_GSTRG
  5
4A
 10
224.422762
 20
271.8924299999999
 30
0.0
 11
233.422762
 21
271.8924299999999
 31
0.0
  0
LINE
  8
ITEM_GSTRG
  5
4B
 10
233.422762
 20
245.8924299999999
 30
0.0
 11
224.422762
 21
245.8924299999999
 31
0.0
  0
LINE
  8
ITEM_GSTRG
  5
4C
 10
224.422762
 20
245.8924299999999
 30
0.0
 11
224.422762
 21
231.8924299999999
 31
0.0
  0
LINE
  8
ITEM_GSTRG
  5
4D
 10
224.422762
 20
231.8924299999999
 30
0.0
 11
233.422762
 21
231.8924299999999
 31
0.0
  0
LINE
  8
ITEM_GSTRG
  5
4E
 10
193.833059
 20
358.137604
 30
0.0
 11
193.833059
 21
367.137604
 31
0.0
  0
LINE
  8
ITEM_GSTRG
  5
4F
 10
179.833059
 20
358.137604
 30
0.0
 11
193.833059
 21
358.137604
 31
0.0
  0
LINE
  8
ITEM_GSTRG
  5
50
 10
179.833059
 20
367.137604
 30
0.0
 11
179.833059
 21
358.137604
 31
0.0
  0
LINE
  8
ITEM_GSTRG
  5
51
 10
153.833059
 20
358.137604
 30
0.0
 11
153.833059
 21
367.137604
 31
0.0
  0
LINE
  8
ITEM_GSTRG
  5
52
 10
139.833059
 20
358.137604
 30
0.0
 11
153.833059
 21
358.137604
 31
0.0
  0
LINE
  8
ITEM_GSTRG
  5
53
 10
139.833059
 20
367.137604
 30
0.0
 11
139.833059
 21
358.137604
 31
0.0
  0
LINE
  8
ITEM_GSTRG
  5
54
 10
99.83305899999999
 20
367.137604
 30
0.0
 11
99.83305899999999
 21
358.137604
 31
0.0
  0
LINE
  8
ITEM_GSTRG
  5
55
 10
99.83305899999999
 20
358.137604
 30
0.0
 11
113.833059
 21
358.137604
 31
0.0
  0
LINE
  8
ITEM_GSTRG
  5
56
 10
113.833059
 20
358.137604
 30
0.0
 11
113.833059
 21
367.137604
 31
0.0
  0
LINE
  8
ITEM_GSTRG
  5
57
 10
142.833059
 20
358.137604
 30
0.0
 11
142.833059
 21
367.137604
 31
0.0
  0
LINE
  8
ITEM_GSTRG
  5
58
 10
150.833059
 20
367.137604
 30
0.0
 11
150.833059
 21
358.137604
 31
0.0
  0
LINE
  8
ITEM_GSTRG
  5
59
 10
182.833059
 20
358.137604
 30
0.0
 11
182.833059
 21
367.137604
 31
0.0
  0
LINE
  8
ITEM_GSTRG
  5
5A
 10
190.833059
 20
367.137604
 30
0.0
 11
190.833059
 21
358.137604
 31
0.0
  0
LINE
  8
ITEM_GSTRG
  5
5B
 10
233.422762
 20
334.2924299999999
 30
0.0
 11
224.422762
 21
334.2924299999999
 31
0.0
  0
LINE
  8
ITEM_GSTRG
  5
5C
 10
224.422762
 20
223.4924299999999
 30
0.0
 11
233.422762
 21
223.4924299999999
 31
0.0
  0
LINE
  8
ITEM_GSTRG
  5
5D
 10
110.833059
 20
367.137604
 30
0.0
 11
110.833059
 21
358.137604
 31
0.0
  0
LINE
  8
ITEM_GSTRG
  5
5E
 10
102.8330589999999
 20
358.137604
 30
0.0
 11
102.8330589999999
 21
367.137604
 31
0.0
  0
LINE
  8
ITEM_GSTRG
  5
5F
 10
233.422762
 20
274.8924299999999
 30
0.0
 11
224.422762
 21
274.8924299999999
 31
0.0
  0
LINE
  8
ITEM_GSTRG
  5
60
 10
224.422762
 20
282.8924299999999
 30
0.0
 11
233.422762
 21
282.8924299999999
 31
0.0
  0
LINE
  8
ITEM_50
  5
62
 10
237.422762
 20
257.8514399999999
 30
0.0
 11
237.422762
 21
221.3924299999999
 31
0.0
  0
LINE
  8
ITEM_50
  5
63
 10
237.422762
 20
306.0796109999999
 30
0.0
 11
237.422762
 21
257.8514399999999
 31
0.0
  0
LINE
  8
ITEM_GSTRG
  5
64
 10
89.33305899999999
 20
367.137604
 30
0.0
 11
89.33305899999999
 21
358.137604
 31
0.0
  0
LINE
  8
ITEM_GSTRG
  5
65
 10
89.33305899999999
 20
358.137604
 30
0.0
 11
93.33305899999999
 21
358.137604
 31
0.0
  0
LINE
  8
ITEM_GSTRG
  5
66
 10
93.33305899999999
 20
358.137604
 30
0.0
 11
93.33305899999999
 21
367.137604
 31
0.0
  0
LINE
  8
ITEM_GSTRG
  5
67
 10
91.33305899999999
 20
358.137604
 30
0.0
 11
91.33305899999999
 21
367.137604
 31
0.0
  0
LINE
  8
ITEM_GSTRG
  5
68
 10
202.2330589999999
 20
358.137604
 30
0.0
 11
202.2330589999999
 21
367.137604
 31
0.0
  0
LINE
  8
ITEM_GSTRG
  5
69
 10
200.2330589999999
 20
358.137604
 30
0.0
 11
200.2330589999999
 21
367.137604
 31
0.0
  0
LINE
  8
ITEM_GSTRG
  5
6A
 10
204.2330589999999
 20
358.137604
 30
0.0
 11
200.2330589999999
 21
358.137604
 31
0.0
  0
LINE
  8
ITEM_GSTRG
  5
6B
 10
204.2330589999999
 20
367.137604
 30
0.0
 11
204.2330589999999
 21
358.137604
 31
0.0
  0
LINE
  8
ITEM_50
  5
6C
 10
86.83305899999999
 20
367.137604
 30
0.0
 11
206.833059
 21
367.137604
 31
0.0
  0
LINE
  8
ITEM_GSTRG
  5
6D
 10
224.422762
 20
225.4924299999999
 30
0.0
 11
224.422762
 21
221.4924299999999
 31
0.0
  0
LINE
  8
ITEM_GSTRG
  5
6E
 10
233.422762
 20
225.4924299999999
 30
0.0
 11
224.422762
 21
225.4924299999999
 31
0.0
  0
LINE
  8
ITEM_GSTRG
  5
6F
 10
224.422762
 20
221.4924299999999
 30
0.0
 11
233.422762
 21
221.4924299999999
 31
0.0
  0
LINE
  8
ITEM_GSTRG
  5
70
 10
224.422762
 20
332.2924299999999
 30
0.0
 11
233.422762
 21
332.2924299999999
 31
0.0
  0
LINE
  8
ITEM_GSTRG
  5
71
 10
224.422762
 20
336.2924299999999
 30
0.0
 11
224.422762
 21
332.2924299999999
 31
0.0
  0
LINE
  8
ITEM_GSTRG
  5
72
 10
233.422762
 20
336.2924299999999
 30
0.0
 11
224.422762
 21
336.2924299999999
 31
0.0
  0
LINE
  8
ITEM_GSTRG
  5
73
 10
233.422762
 20
314.8924299999999
 30
0.0
 11
224.422762
 21
314.8924299999999
 31
0.0
  0
LINE
  8
ITEM_GSTRG
  5
74
 10
224.422762
 20
322.8924299999999
 30
0.0
 11
233.422762
 21
322.8924299999999
 31
0.0
  0
LINE
  8
ITEM_GSTRG
  5
75
 10
224.422762
 20
242.8924299999999
 30
0.0
 11
233.422762
 21
242.8924299999999
 31
0.0
  0
LINE
  8
ITEM_GSTRG
  5
76
 10
233.422762
 20
234.8924299999999
 30
0.0
 11
224.422762
 21
234.8924299999999
 31
0.0
  0
LINE
  8
ITEM_50
  5
77
 10
233.422762
 20
218.8924299999999
 30
0.0
 11
233.422762
 21
338.8924299999999
 31
0.0
  0
CIRCLE
  8
ITEM_50
  5
78
 10
93.33305899999999
 20
225.3924319999999
 30
0.0
 40
4.15
  0
CIRCLE
  8
ITEM_50
  5
79
 10
200.333059
 20
225.3924319999999
 30
0.0
 40
4.15
  0
CIRCLE
  8
ITEM_50
  5
7A
 10
93.33305899999999
 20
332.3924299999999
 30
0.0
 40
4.15
  0
CIRCLE
  8
ITEM_50
  5
7B
 10
200.333059
 20
332.3924299999999
 30
0.0
 40
4.15
  0
ARC
  8
ITEM_50
  5
7C
 10
202.833059
 20
222.8924299999999
 30
0.0
 40
4.0
 50
333.434949
 51
0.0
  0
ARC
  8
ITEM_50
  5
7D
 10
202.833059
 20
222.8924299999999
 30
0.0
 40
4.0
 50
270.000018
 51
333.434949
  0
LINE
  8
ITEM_50
  5
7E
 10
90.83305899999999
 20
218.8924299999999
 30
0.0
 11
202.833059
 21
218.8924299999999
 31
0.0
  0
ARC
  8
ITEM_50
  5
7F
 10
90.83305899999999
 20
222.8924299999999
 30
0.0
 40
4.0
 50
180.0
 51
270.0
  0
LINE
  8
ITEM_50
  5
80
 10
86.83305899999999
 20
334.8924299999999
 30
0.0
 11
86.83305899999999
 21
222.8924299999999
 31
0.0
  0
ARC
  8
ITEM_50
  5
81
 10
90.83305899999999
 20
334.8924299999999
 30
0.0
 40
4.0
 50
90.0
 51
180.0
  0
LINE
  8
ITEM_50
  5
82
 10
202.833059
 20
338.8924299999999
 30
0.0
 11
90.83305899999999
 21
338.8924299999999
 31
0.0
  0
ARC
  8
ITEM_50
  5
83
 10
202.833059
 20
334.8924299999999
 30
0.0
 40
4.0
 50
0.0
 51
26.565051
  0
ARC
  8
ITEM_50
  5
84
 10
202.833059
 20
334.8924299999999
 30
0.0
 40
4.0
 50
26.565051
 51
89.99997299999999
  0
LINE
  8
ITEM_50
  5
85
 10
206.833059
 20
334.8924319999999
 30
0.0
 11
206.833059
 21
222.8924299999999
 31
0.0
  0
ARC
  8
ITEM_50
  5
86
 10
89.33305899999999
 20
368.637604
 30
0.0
 40
2.5
 50
90.0
 51
180.0
  0
ARC
  8
ITEM_50
  5
87
 10
204.333059
 20
368.637604
 30
0.0
 40
2.5
 50
0.0
 51
90.0
  0
LINE
  8
ITEM_50
  5
88
 10
86.83305899999999
 20
368.637604
 30
0.0
 11
86.83305899999999
 21
367.137604
 31
0.0
  0
LINE
  8
ITEM_50
  5
89
 10
204.333059
 20
371.137604
 30
0.0
 11
89.33305899999999
 21
371.137604
 31
0.0
  0
LINE
  8
ITEM_50
  5
8A
 10
206.833059
 20
367.137604
 30
0.0
 11
206.833059
 21
368.637604
 31
0.0
  0
ARC
  8
ITEM_50
  5
8B
 10
234.922762
 20
221.3924299999999
 30
0.0
 40
2.5
 50
270.0
 51
0.0
  0
ARC
  8
ITEM_50
  5
8C
 10
234.922762
 20
336.3924299999999
 30
0.0
 40
2.5
 50
0.0
 51
90.0
  0
LINE
  8
ITEM_50
  5
8D
 10
234.922762
 20
218.8924299999999
 30
0.0
 11
233.422762
 21
218.8924299999999
 31
0.0
  0
LINE
  8
ITEM_50
  5
8E
 10
237.422762
 20
336.3924299999999
 30
0.0
 11
237.422762
 21
306.0796109999999
 31
0.0
  0
LINE
  8
ITEM_50
  5
8F
 10
233.422762
 20
338.8924299999999
 30
0.0
 11
234.922762
 21
338.8924299999999
 31
0.0
  0
ENDSEC
  0
EOF
